999
FreeCAD v0.19 21857 (Git)
  0
SECTION
  2
HEADER
  9
$ACADVER
  1
AC1014
  9
$ACADMAINTVER
 70
     9
  9
$DWGCODEPAGE
  3
ANSI_1252
  9
$TEXTSTYLE
  7
STANDARD
  9
$DIMSTYLE
  2
STANDARD
  9
$DIMTXSTY
  7
STANDARD
  9
$CMLSTYLE
  2
STANDARD
  9
$PEXTMAX
 10
50
 20
50
 30
50
  9
$PEXTMIN
 10
0
 20
0
 30
0
  9
$HANDSEED
  5
FFFF
  0
ENDSEC
  0
SECTION
  2
CLASSES
  0
CLASS
  1
ACDBDICTIONARYWDFLT
  2
AcDbDictionaryWithDefault
  3
ObjectDBX Classes
 90
        0
280
     0
281
     0
  0
CLASS
  1
XRECORD
  2
AcDbXrecord
  3
ObjectDBX Classes
 90
        0
280
     0
281
     0
  0
CLASS
  1
LWPOLYLINE
  2
AcDbPolyline
  3
ObjectDBX Classes
 90
        0
280
     0
281
     1
  0
ENDSEC
  0
SECTION
  2
TABLES
  0
TABLE
  2
VPORT
  5
20
330
0
100
AcDbSymbolTable
 70
     1
  0
VPORT
  5
21
330
20
100
AcDbSymbolTableRecord
100
AcDbViewportTableRecord
  2
*ACTIVE
 70
     0
  0
ENDTAB
  0
TABLE
  2
LTYPE
  5
22
330
0
100
AcDbSymbolTable
 70
     1
  0
LTYPE
  5
23
330
21
100
AcDbSymbolTableRecord
100
AcDbLinetypeTableRecord
  2
BYBLOCK
 70
     0
  3

 72
    65
 73
     0
 40
0.0
  0
LTYPE
  5
24
330
21
100
AcDbSymbolTableRecord
100
AcDbLinetypeTableRecord
  2
BYLAYER
 70
     0
  3

 72
    65
 73
     0
 40
0.0
  0
LTYPE
  5
25
330
21
100
AcDbSymbolTableRecord
100
AcDbLinetypeTableRecord
  2
CONTINUOUS
 70
     0
  3
Solid line
 72
    65
 73
     0
 40
0.0
  0
ENDTAB
  0
TABLE
  2
LAYER
  5
A4E
330
0
100
AcDbSymbolTable
 70
11
  0
LAYER
  5
A4F
330
A4E
100
AcDbSymbolTableRecord
100
AcDbLayerTableRecord
  2
0
 70
   0
 62
   7
  6
CONTINUOUS
  0
LAYER
  5
A50
330
A4E
100
AcDbSymbolTableRecord
100
AcDbLayerTableRecord
  2
View
 70
    0
 62
    7
  6
CONTINUOUS
  0
LAYER
  5
A51
330
A4E
100
AcDbSymbolTableRecord
100
AcDbLayerTableRecord
  2
View002
 70
    0
 62
    7
  6
CONTINUOUS
  0
LAYER
  5
A52
330
A4E
100
AcDbSymbolTableRecord
100
AcDbLayerTableRecord
  2
View003
 70
    0
 62
    7
  6
CONTINUOUS
  0
LAYER
  5
A53
330
A4E
100
AcDbSymbolTableRecord
100
AcDbLayerTableRecord
  2
View004
 70
    0
 62
    7
  6
CONTINUOUS
  0
LAYER
  5
A54
330
A4E
100
AcDbSymbolTableRecord
100
AcDbLayerTableRecord
  2
View005
 70
    0
 62
    7
  6
CONTINUOUS
  0
LAYER
  5
A55
330
A4E
100
AcDbSymbolTableRecord
100
AcDbLayerTableRecord
  2
View006
 70
    0
 62
    7
  6
CONTINUOUS
  0
LAYER
  5
A56
330
A4E
100
AcDbSymbolTableRecord
100
AcDbLayerTableRecord
  2
View007
 70
    0
 62
    7
  6
CONTINUOUS
  0
LAYER
  5
A57
330
A4E
100
AcDbSymbolTableRecord
100
AcDbLayerTableRecord
  2
View008
 70
    0
 62
    7
  6
CONTINUOUS
  0
LAYER
  5
A58
330
A4E
100
AcDbSymbolTableRecord
100
AcDbLayerTableRecord
  2
View009
 70
    0
 62
    7
  6
CONTINUOUS
  0
LAYER
  5
A59
330
A4E
100
AcDbSymbolTableRecord
100
AcDbLayerTableRecord
  2
View010
 70
    0
 62
    7
  6
CONTINUOUS
  0
ENDTAB
  0
TABLE
  2
STYLE
  5
70
330
0
100
AcDbSymbolTable
 70
     2
  0
STYLE
  5
71
330
70
100
AcDbSymbolTableRecord
100
AcDbTextStyleTableRecord
  2
STANDARD
 70
     0
 40
0.0
 41
1.0
 50
0.0
 71
     0
 42
2.5
  3
arial.ttf
  4

  0
STYLE
  5
72
330
70
100
AcDbSymbolTableRecord
100
AcDbTextStyleTableRecord
  2
ANNOTATIVE
 70
     0
 40
0.0
 41
1.0
 50
0.0
 71
     0
 42
2.5
  3
arial.ttf
  4

  0
ENDTAB
  0
TABLE
  2
VIEW
  5
73
330
0
100
AcDbSymbolTable
 70
     0
  0
ENDTAB
  0
TABLE
  2
UCS
  5
74
330
0
100
AcDbSymbolTable
 70
     0
  0
ENDTAB
  0
TABLE
  2
APPID
  5
75
330
0
100
AcDbSymbolTable
 70
     2
  0
APPID
  5
76
330
75
100
AcDbSymbolTableRecord
100
AcDbRegAppTableRecord
  2
ACAD
 70
     0
  0
APPID
  5
77
330
75
100
AcDbSymbolTableRecord
100
AcDbRegAppTableRecord
  2
ACADANNOTATIVE
 70
     0
  0
ENDTAB
  0
TABLE
  2
DIMSTYLE
  5
78
330
0
100
AcDbSymbolTable
 70
     2
  0
DIMSTYLE
105
79
330
78
100
AcDbSymbolTableRecord
100
AcDbDimStyleTableRecord
  2
STANDARD
 70
     0
  3

  4

  5

  6

  7

 40
0.0
 41
2.5
 42
0.625
 43
3.75
 44
1.25
 45
0.0
 46
0.0
 47
0.0
 48
0.0
140
2.5
141
2.5
142
0.0
143
0.03937007874016
144
1.0
145
0.0
146
1.0
147
0.625
 71
     0
 72
     0
 73
     0
 74
     0
 75
     0
 76
     0
 77
     1
 78
     8
170
     0
171
     3
172
     1
173
     0
174
     0
175
     0
176
     0
177
     0
178
     0
270
     2
271
     2
272
     2
273
     2
274
     3
340
71
275
     0
280
     0
281
     0
282
     0
283
     0
284
     8
285
     0
286
     0
287
     3
288
     0
  0
ENDTAB
  0
TABLE
  2
BLOCK_RECORD
  5
A01
330
0
100
AcDbSymbolTable
  70
5
  0
BLOCK_RECORD
  5
A02
330
A01
100
AcDbSymbolTableRecord
100
AcDbBlockTableRecord
  2
*MODEL_SPACE
  0
BLOCK_RECORD
  5
A03
330
A01
100
AcDbSymbolTableRecord
100
AcDbBlockTableRecord
  2
*PAPER_SPACE
  0
ENDTAB
  0
ENDSEC
  0
SECTION
  2
BLOCKS
  0
BLOCK
  5
A04
330
A02
100
AcDbEntity
  8
0
100
AcDbBlockBegin
  2
*MODEL_SPACE
 70
   0
 10
0
 20
0
 30
0
  3
*MODEL_SPACE
  1
 
  0
ENDBLK
  5
A05
330
A02
100
AcDbEntity
  8
0
100
AcDbBlockEnd
  0
BLOCK
  5
A06
330
A03
100
AcDbEntity
 67
1
  8
0
100
AcDbBlockBegin
  2
*PAPER_SPACE
 70
   0
 10
0
 20
0
 30
0
  3
*PAPER_SPACE
  1
 
  0
ENDBLK
  5
A07
330
A03
100
AcDbEntity
 67
    1
  8
0
100
AcDbBlockEnd
  0
ENDSEC
  0
SECTION
  2
ENTITIES
  0
CIRCLE
  5
A08
330
A02
100
AcDbEntity
  8
View
100
AcDbCircle
 10
186.827
 20
418.676
 40
170
  0
CIRCLE
  5
A09
330
A02
100
AcDbEntity
  8
View
100
AcDbCircle
 10
61.3274
 20
439.676
 40
2
  0
CIRCLE
  5
A0A
330
A02
100
AcDbEntity
  8
View
100
AcDbCircle
 10
312.327
 20
407.074
 40
2
  0
CIRCLE
  5
A0B
330
A02
100
AcDbEntity
  8
View
100
AcDbCircle
 10
312.327
 20
430.278
 40
2
  0
CIRCLE
  5
A0C
330
A02
100
AcDbEntity
  8
View
100
AcDbCircle
 10
61.3274
 20
397.676
 40
2
  0
CIRCLE
  5
A0D
330
A02
100
AcDbEntity
  8
View
100
AcDbCircle
 10
207.827
 20
540.576
 40
2
  0
CIRCLE
  5
A0E
330
A02
100
AcDbEntity
  8
View
100
AcDbCircle
 10
165.827
 20
540.576
 40
2
  0
CIRCLE
  5
A0F
330
A02
100
AcDbEntity
  8
View
100
AcDbCircle
 10
96.8274
 20
418.676
 40
2
  0
CIRCLE
  5
A10
330
A02
100
AcDbEntity
  8
View
100
AcDbCircle
 10
186.827
 20
328.676
 40
2
  0
CIRCLE
  5
A11
330
A02
100
AcDbEntity
  8
View
100
AcDbCircle
 10
276.827
 20
418.676
 40
2
  0
CIRCLE
  5
A12
330
A02
100
AcDbEntity
  8
View
100
AcDbCircle
 10
186.827
 20
508.676
 40
2
  0
CIRCLE
  5
A13
330
A02
100
AcDbEntity
  8
View
100
AcDbCircle
 10
186.827
 20
258.676
 40
2
  0
CIRCLE
  5
A14
330
A02
100
AcDbEntity
  8
View
100
AcDbCircle
 10
26.8274
 20
418.676
 40
2
  0
CIRCLE
  5
A15
330
A02
100
AcDbEntity
  8
View
100
AcDbCircle
 10
346.827
 20
418.676
 40
2
  0
CIRCLE
  5
A16
330
A02
100
AcDbEntity
  8
View
100
AcDbCircle
 10
186.827
 20
578.676
 40
2
  0
CIRCLE
  5
A17
330
A02
100
AcDbEntity
  8
View002
100
AcDbCircle
 10
805.481
 20
418.676
 40
170
  0
CIRCLE
  5
A18
330
A02
100
AcDbEntity
  8
View002
100
AcDbCircle
 10
805.481
 20
418.676
 40
150
  0
CIRCLE
  5
A19
330
A02
100
AcDbEntity
  8
View002
100
AcDbCircle
 10
645.481
 20
418.676
 40
2
  0
CIRCLE
  5
A1A
330
A02
100
AcDbEntity
  8
View002
100
AcDbCircle
 10
805.481
 20
258.676
 40
2
  0
CIRCLE
  5
A1B
330
A02
100
AcDbEntity
  8
View002
100
AcDbCircle
 10
965.481
 20
418.676
 40
2
  0
CIRCLE
  5
A1C
330
A02
100
AcDbEntity
  8
View002
100
AcDbCircle
 10
805.481
 20
578.676
 40
2
  0
CIRCLE
  5
A1D
330
A02
100
AcDbEntity
  8
View003
100
AcDbCircle
 10
495.605
 20
193.411
 40
170
  0
CIRCLE
  5
A1E
330
A02
100
AcDbEntity
  8
View003
100
AcDbCircle
 10
495.605
 20
193.411
 40
150
  0
CIRCLE
  5
A1F
330
A02
100
AcDbEntity
  8
View003
100
AcDbCircle
 10
335.605
 20
193.411
 40
2
  0
CIRCLE
  5
A20
330
A02
100
AcDbEntity
  8
View003
100
AcDbCircle
 10
495.605
 20
33.4114
 40
2
  0
CIRCLE
  5
A21
330
A02
100
AcDbEntity
  8
View003
100
AcDbCircle
 10
655.605
 20
193.411
 40
2
  0
CIRCLE
  5
A22
330
A02
100
AcDbEntity
  8
View003
100
AcDbCircle
 10
495.605
 20
353.411
 40
2
  0
CIRCLE
  5
A23
330
A02
100
AcDbEntity
  8
View004
100
AcDbCircle
 10
808.777
 20
418.676
 40
108
  0
CIRCLE
  5
A24
330
A02
100
AcDbEntity
  8
View004
100
AcDbCircle
 10
826.777
 20
418.676
 40
3
  0
CIRCLE
  5
A25
330
A02
100
AcDbEntity
  8
View004
100
AcDbCircle
 10
790.777
 20
418.676
 40
3
  0
CIRCLE
  5
A26
330
A02
100
AcDbEntity
  8
View004
100
AcDbCircle
 10
898.777
 20
418.676
 40
2
  0
CIRCLE
  5
A27
330
A02
100
AcDbEntity
  8
View004
100
AcDbCircle
 10
808.777
 20
328.676
 40
2
  0
CIRCLE
  5
A28
330
A02
100
AcDbEntity
  8
View004
100
AcDbCircle
 10
718.777
 20
418.676
 40
2
  0
CIRCLE
  5
A29
330
A02
100
AcDbEntity
  8
View004
100
AcDbCircle
 10
808.777
 20
508.676
 40
2
  0
LINE
  5
A2A
330
A02
100
AcDbEntity
  8
View005
100
AcDbLine
 10
187.327
 20
196.164
 30
0
 11
249.327
 21
196.164
 31
0
  0
LINE
  5
A2B
330
A02
100
AcDbEntity
  8
View005
100
AcDbLine
 10
249.327
 20
196.164
 30
0
 11
249.327
 21
187.164
 31
0
  0
LINE
  5
A2C
330
A02
100
AcDbEntity
  8
View005
100
AcDbLine
 10
249.327
 20
187.164
 30
0
 11
187.327
 21
187.164
 31
0
  0
LINE
  5
A2D
330
A02
100
AcDbEntity
  8
View005
100
AcDbLine
 10
187.327
 20
187.164
 30
0
 11
187.327
 21
196.164
 31
0
  0
CIRCLE
  5
A2E
330
A02
100
AcDbEntity
  8
View005
100
AcDbCircle
 10
239.327
 20
191.664
 40
2
  0
CIRCLE
  5
A2F
330
A02
100
AcDbEntity
  8
View005
100
AcDbCircle
 10
197.327
 20
191.664
 40
2
  0
LINE
  5
A30
330
A02
100
AcDbEntity
  8
View006
100
AcDbLine
 10
111.492
 20
197.368
 30
0
 11
173.492
 21
197.368
 31
0
  0
LINE
  5
A31
330
A02
100
AcDbEntity
  8
View006
100
AcDbLine
 10
173.492
 20
197.368
 30
0
 11
173.492
 21
188.368
 31
0
  0
LINE
  5
A32
330
A02
100
AcDbEntity
  8
View006
100
AcDbLine
 10
173.492
 20
188.368
 30
0
 11
111.492
 21
188.368
 31
0
  0
LINE
  5
A33
330
A02
100
AcDbEntity
  8
View006
100
AcDbLine
 10
111.492
 20
188.368
 30
0
 11
111.492
 21
197.368
 31
0
  0
CIRCLE
  5
A34
330
A02
100
AcDbEntity
  8
View006
100
AcDbCircle
 10
163.492
 20
192.868
 40
2
  0
CIRCLE
  5
A35
330
A02
100
AcDbEntity
  8
View006
100
AcDbCircle
 10
121.492
 20
192.868
 40
2
  0
LINE
  5
A36
330
A02
100
AcDbEntity
  8
View007
100
AcDbLine
 10
31.2825
 20
196.164
 30
0
 11
93.2825
 21
196.164
 31
0
  0
LINE
  5
A37
330
A02
100
AcDbEntity
  8
View007
100
AcDbLine
 10
93.2825
 20
196.164
 30
0
 11
93.2825
 21
187.164
 31
0
  0
LINE
  5
A38
330
A02
100
AcDbEntity
  8
View007
100
AcDbLine
 10
93.2825
 20
187.164
 30
0
 11
31.2825
 21
187.164
 31
0
  0
LINE
  5
A39
330
A02
100
AcDbEntity
  8
View007
100
AcDbLine
 10
31.2825
 20
187.164
 30
0
 11
31.2825
 21
196.164
 31
0
  0
CIRCLE
  5
A3A
330
A02
100
AcDbEntity
  8
View007
100
AcDbCircle
 10
83.2825
 20
191.664
 40
2
  0
CIRCLE
  5
A3B
330
A02
100
AcDbEntity
  8
View007
100
AcDbCircle
 10
41.2825
 20
191.664
 40
2
  0
LINE
  5
A3C
330
A02
100
AcDbEntity
  8
View008
100
AcDbLine
 10
186.196
 20
223.343
 30
0
 11
248.196
 21
223.343
 31
0
  0
LINE
  5
A3D
330
A02
100
AcDbEntity
  8
View008
100
AcDbLine
 10
248.196
 20
223.343
 30
0
 11
248.196
 21
214.343
 31
0
  0
LINE
  5
A3E
330
A02
100
AcDbEntity
  8
View008
100
AcDbLine
 10
248.196
 20
214.343
 30
0
 11
186.196
 21
214.343
 31
0
  0
LINE
  5
A3F
330
A02
100
AcDbEntity
  8
View008
100
AcDbLine
 10
186.196
 20
214.343
 30
0
 11
186.196
 21
223.343
 31
0
  0
CIRCLE
  5
A40
330
A02
100
AcDbEntity
  8
View008
100
AcDbCircle
 10
238.196
 20
218.843
 40
2
  0
CIRCLE
  5
A41
330
A02
100
AcDbEntity
  8
View008
100
AcDbCircle
 10
196.196
 20
218.843
 40
2
  0
LINE
  5
A42
330
A02
100
AcDbEntity
  8
View009
100
AcDbLine
 10
107.881
 20
221.443
 30
0
 11
169.881
 21
221.443
 31
0
  0
LINE
  5
A43
330
A02
100
AcDbEntity
  8
View009
100
AcDbLine
 10
169.881
 20
221.443
 30
0
 11
169.881
 21
212.443
 31
0
  0
LINE
  5
A44
330
A02
100
AcDbEntity
  8
View009
100
AcDbLine
 10
169.881
 20
212.443
 30
0
 11
107.881
 21
212.443
 31
0
  0
LINE
  5
A45
330
A02
100
AcDbEntity
  8
View009
100
AcDbLine
 10
107.881
 20
212.443
 30
0
 11
107.881
 21
221.443
 31
0
  0
CIRCLE
  5
A46
330
A02
100
AcDbEntity
  8
View009
100
AcDbCircle
 10
159.881
 20
216.943
 40
2
  0
CIRCLE
  5
A47
330
A02
100
AcDbEntity
  8
View009
100
AcDbCircle
 10
117.881
 20
216.943
 40
2
  0
LINE
  5
A48
330
A02
100
AcDbEntity
  8
View010
100
AcDbLine
 10
32.0456
 20
221.443
 30
0
 11
94.0456
 21
221.443
 31
0
  0
LINE
  5
A49
330
A02
100
AcDbEntity
  8
View010
100
AcDbLine
 10
94.0456
 20
221.443
 30
0
 11
94.0456
 21
212.443
 31
0
  0
LINE
  5
A4A
330
A02
100
AcDbEntity
  8
View010
100
AcDbLine
 10
94.0456
 20
212.443
 30
0
 11
32.0456
 21
212.443
 31
0
  0
LINE
  5
A4B
330
A02
100
AcDbEntity
  8
View010
100
AcDbLine
 10
32.0456
 20
212.443
 30
0
 11
32.0456
 21
221.443
 31
0
  0
CIRCLE
  5
A4C
330
A02
100
AcDbEntity
  8
View010
100
AcDbCircle
 10
84.0456
 20
216.943
 40
2
  0
CIRCLE
  5
A4D
330
A02
100
AcDbEntity
  8
View010
100
AcDbCircle
 10
42.0456
 20
216.943
 40
2
  0
ENDSEC
  0
SECTION
  2
OBJECTS
  0
DICTIONARY
  5
F000
330
0
100
AcDbDictionary
  3
ACAD_GROUP
350
F001
  0
DICTIONARY
  5
F001
330
F000
100
AcDbDictionary
  0
ENDSEC
  0
EOF